  0
SECTION
  2
HEADER
  9
$ACADVER
  1
AC1015
  9
$ACADMAINTVER
 70
     6
  9
$DWGCODEPAGE
  3
ANSI_1254
  9
$INSBASE
 10
0.0
 20
0.0
 30
0.0
  9
$EXTMIN
 10
0.0
 20
0.0
 30
0.0
  9
$EXTMAX
 10
279.4
 20
215.9
 30
0.0
  9
$LIMMIN
 10
0.0
 20
0.0
  9
$LIMMAX
 10
279.4
 20
215.9
  9
$ORTHOMODE
 70
     0
  9
$REGENMODE
 70
     1
  9
$FILLMODE
 70
     1
  9
$QTEXTMODE
 70
     0
  9
$MIRRTEXT
 70
     1
  9
$LTSCALE
 40
1.0
  9
$ATTMODE
 70
     1
  9
$TEXTSIZE
 40
3.5
  9
$TRACEWID
 40
1.0
  9
$TEXTSTYLE
  7
Standard
  9
$CLAYER
  8
0
  9
$CELTYPE
  6
ByLayer
  9
$CECOLOR
 62
   256
  9
$CELTSCALE
 40
1.0
  9
$DISPSILH
 70
     0
  9
$DIMSCALE
 40
1.0
  9
$DIMASZ
 40
3.5
  9
$DIMEXO
 40
1.0
  9
$DIMDLI
 40
3.75
  9
$DIMRND
 40
0.0
  9
$DIMDLE
 40
0.0
  9
$DIMEXE
 40
1.0
  9
$DIMTP
 40
0.0
  9
$DIMTM
 40
0.0
  9
$DIMTXT
 40
3.5
  9
$DIMCEN
 40
2.5
  9
$DIMTSZ
 40
0.0
  9
$DIMTOL
 70
     0
  9
$DIMLIM
 70
     0
  9
$DIMTIH
 70
     1
  9
$DIMTOH
 70
     1
  9
$DIMSE1
 70
     0
  9
$DIMSE2
 70
     0
  9
$DIMTAD
 70
     1
  9
$DIMZIN
 70
     0
  9
$DIMBLK
  1

  9
$DIMASO
 70
     1
  9
$DIMSHO
 70
     1
  9
$DIMPOST
  1

  9
$DIMAPOST
  1

  9
$DIMALT
 70
     0
  9
$DIMALTD
 70
     3
  9
$DIMALTF
 40
0.0393700787
  9
$DIMLFAC
 40
1.0
  9
$DIMTOFL
 70
     1
  9
$DIMTVP
 40
0.0
  9
$DIMTIX
 70
     0
  9
$DIMSOXD
 70
     0
  9
$DIMSAH
 70
     0
  9
$DIMBLK1
  1

  9
$DIMBLK2
  1

  9
$DIMSTYLE
  2
ISO-25
  9
$DIMCLRD
 70
     0
  9
$DIMCLRE
 70
     0
  9
$DIMCLRT
 70
     0
  9
$DIMTFAC
 40
1.0
  9
$DIMGAP
 40
1.524
  9
$DIMJUST
 70
     0
  9
$DIMSD1
 70
     0
  9
$DIMSD2
 70
     0
  9
$DIMTOLJ
 70
     0
  9
$DIMTZIN
 70
     0
  9
$DIMALTZ
 70
     0
  9
$DIMALTTZ
 70
     0
  9
$DIMUPT
 70
     0
  9
$DIMDEC
 70
     2
  9
$DIMTDEC
 70
     2
  9
$DIMALTU
 70
     2
  9
$DIMALTTD
 70
     3
  9
$DIMTXSTY
  7
Standard
  9
$DIMAUNIT
 70
     0
  9
$DIMADEC
 70
     2
  9
$DIMALTRND
 40
0.0
  9
$DIMAZIN
 70
     0
  9
$DIMDSEP
 70
    44
  9
$DIMATFIT
 70
     3
  9
$DIMFRAC
 70
     0
  9
$DIMLDRBLK
  1

  9
$DIMLUNIT
 70
     2
  9
$DIMLWD
 70
    -2
  9
$DIMLWE
 70
    -2
  9
$DIMTMOVE
 70
     0
  9
$LUNITS
 70
     2
  9
$LUPREC
 70
     2
  9
$SKETCHINC
 40
1.0
  9
$FILLETRAD
 40
10.0
  9
$AUNITS
 70
     0
  9
$AUPREC
 70
     2
  9
$MENU
  1
.
  9
$ELEVATION
 40
0.0
  9
$PELEVATION
 40
0.0
  9
$THICKNESS
 40
0.0
  9
$LIMCHECK
 70
     0
  9
$CHAMFERA
 40
0.0
  9
$CHAMFERB
 40
0.0
  9
$CHAMFERC
 40
0.0
  9
$CHAMFERD
 40
0.0
  9
$SKPOLY
 70
     0
  9
$TDCREATE
 40
2458985.683480718
  9
$TDUCREATE
 40
2458985.558480718
  9
$TDUPDATE
 40
2458985.683481076
  9
$TDUUPDATE
 40
2458985.558481076
  9
$TDINDWG
 40
0.0000000116
  9
$TDUSRTIMER
 40
0.0000000116
  9
$USRTIMER
 70
     1
  9
$ANGBASE
 50
0.0
  9
$ANGDIR
 70
     0
  9
$PDMODE
 70
     0
  9
$PDSIZE
 40
-1.0
  9
$PLINEWID
 40
0.0
  9
$SPLFRAME
 70
     0
  9
$SPLINETYPE
 70
     6
  9
$SPLINESEGS
 70
     8
  9
$HANDSEED
  5
CB
  9
$SURFTAB1
 70
     6
  9
$SURFTAB2
 70
     6
  9
$SURFTYPE
 70
     6
  9
$SURFU
 70
     6
  9
$SURFV
 70
     6
  9
$UCSBASE
  2

  9
$UCSNAME
  2

  9
$UCSORG
 10
0.0
 20
0.0
 30
0.0
  9
$UCSXDIR
 10
1.0
 20
0.0
 30
0.0
  9
$UCSYDIR
 10
0.0
 20
1.0
 30
0.0
  9
$UCSORTHOREF
  2

  9
$UCSORTHOVIEW
 70
     0
  9
$UCSORGTOP
 10
0.0
 20
0.0
 30
0.0
  9
$UCSORGBOTTOM
 10
0.0
 20
0.0
 30
0.0
  9
$UCSORGLEFT
 10
0.0
 20
0.0
 30
0.0
  9
$UCSORGRIGHT
 10
0.0
 20
0.0
 30
0.0
  9
$UCSORGFRONT
 10
0.0
 20
0.0
 30
0.0
  9
$UCSORGBACK
 10
0.0
 20
0.0
 30
0.0
  9
$PUCSBASE
  2

  9
$PUCSNAME
  2

  9
$PUCSORG
 10
0.0
 20
0.0
 30
0.0
  9
$PUCSXDIR
 10
1.0
 20
0.0
 30
0.0
  9
$PUCSYDIR
 10
0.0
 20
1.0
 30
0.0
  9
$PUCSORTHOREF
  2

  9
$PUCSORTHOVIEW
 70
     0
  9
$PUCSORGTOP
 10
0.0
 20
0.0
 30
0.0
  9
$PUCSORGBOTTOM
 10
0.0
 20
0.0
 30
0.0
  9
$PUCSORGLEFT
 10
0.0
 20
0.0
 30
0.0
  9
$PUCSORGRIGHT
 10
0.0
 20
0.0
 30
0.0
  9
$PUCSORGFRONT
 10
0.0
 20
0.0
 30
0.0
  9
$PUCSORGBACK
 10
0.0
 20
0.0
 30
0.0
  9
$USERI1
 70
     0
  9
$USERI2
 70
     0
  9
$USERI3
 70
     0
  9
$USERI4
 70
     0
  9
$USERI5
 70
     0
  9
$USERR1
 40
0.0
  9
$USERR2
 40
0.0
  9
$USERR3
 40
0.0
  9
$USERR4
 40
0.0
  9
$USERR5
 40
0.0
  9
$WORLDVIEW
 70
     1
  9
$SHADEDGE
 70
     3
  9
$SHADEDIF
 70
    70
  9
$TILEMODE
 70
     1
  9
$MAXACTVP
 70
    64
  9
$PINSBASE
 10
0.0
 20
0.0
 30
0.0
  9
$PLIMCHECK
 70
     0
  9
$PEXTMIN
 10
1.0000000000E+20
 20
1.0000000000E+20
 30
1.0000000000E+20
  9
$PEXTMAX
 10
-1.0000000000E+20
 20
-1.0000000000E+20
 30
-1.0000000000E+20
  9
$PLIMMIN
 10
0.0
 20
0.0
  9
$PLIMMAX
 10
420.0
 20
297.0
  9
$UNITMODE
 70
     0
  9
$VISRETAIN
 70
     1
  9
$PLINEGEN
 70
     0
  9
$PSLTSCALE
 70
     1
  9
$TREEDEPTH
 70
  3020
  9
$CMLSTYLE
  2
Standard
  9
$CMLJUST
 70
     0
  9
$CMLSCALE
 40
20.0
  9
$PROXYGRAPHICS
 70
     1
  9
$MEASUREMENT
 70
     1
  9
$CELWEIGHT
370
    -1
  9
$ENDCAPS
280
     0
  9
$JOINSTYLE
280
     0
  9
$LWDISPLAY
290
     1
  9
$INSUNITS
 70
     4
  9
$HYPERLINKBASE
  1

  9
$STYLESHEET
  1

  9
$XEDIT
290
     1
  9
$CEPSNTYPE
380
     0
  9
$PSTYLEMODE
290
     1
  9
$FINGERPRINTGUID
  2
{1bbdfd8b-62f9-4f37-97e0-7e9c6e8d2ddd}
  9
$VERSIONGUID
  2
{FAEB1C32-E019-11D5-929B-00C0DF256EC4}
  9
$EXTNAMES
290
     1
  9
$PSVPSCALE
 40
0.0
  9
$OLESTARTUP
290
     0
  0
ENDSEC
  0
SECTION
  2
CLASSES
  0
CLASS
  1
ACDBDICTIONARYWDFLT
  2
AcDbDictionaryWithDefault
  3
ObjectDBX Classes
 90
        0
280
     0
281
     0
  0
CLASS
  1
VISUALSTYLE
  2
AcDbVisualStyle
  3
ObjectDBX Classes
 90
     4095
280
     0
281
     0
  0
CLASS
  1
MATERIAL
  2
AcDbMaterial
  3
ObjectDBX Classes
 90
     1153
280
     0
281
     0
  0
CLASS
  1
SCALE
  2
AcDbScale
  3
ObjectDBX Classes
 90
     1153
280
     0
281
     0
  0
CLASS
  1
TABLESTYLE
  2
AcDbTableStyle
  3
ObjectDBX Classes
 90
     4095
280
     0
281
     0
  0
CLASS
  1
MLEADERSTYLE
  2
AcDbMLeaderStyle
  3
ACDB_MLEADERSTYLE_CLASS
 90
     4095
280
     0
281
     0
  0
CLASS
  1
SUN
  2
AcDbSun
  3
SCENEOE
 90
     1153
280
     0
281
     0
  0
CLASS
  1
ACDBPLACEHOLDER
  2
AcDbPlaceHolder
  3
ObjectDBX Classes
 90
        0
280
     0
281
     0
  0
CLASS
  1
LAYOUT
  2
AcDbLayout
  3
ObjectDBX Classes
 90
        0
280
     0
281
     0
  0
ENDSEC
  0
SECTION
  2
TABLES
  0
TABLE
  2
VPORT
  5
8
330
0
100
AcDbSymbolTable
 70
     1
  0
VPORT
  5
29
330
8
100
AcDbSymbolTableRecord
100
AcDbViewportTableRecord
  2
*Active
 70
     0
 10
0.0
 20
0.0
 11
1.0
 21
1.0
 12
139.7
 22
107.95
 13
0.0
 23
0.0
 14
10.0
 24
10.0
 15
10.0
 25
10.0
 16
0.0
 26
0.0
 36
1.0
 17
0.0
 27
0.0
 37
0.0
 40
215.9
 41
1.2941176471
 42
50.0
 43
0.0
 44
0.0
 50
0.0
 51
0.0
 71
     0
 72
  2000
 73
     1
 74
     3
 75
     0
 76
     0
 77
     0
 78
     0
281
     0
 65
     1
110
0.0
120
0.0
130
0.0
111
1.0
121
0.0
131
0.0
112
0.0
122
1.0
132
0.0
 79
     0
146
0.0
  0
ENDTAB
  0
TABLE
  2
LTYPE
  5
5
330
0
100
AcDbSymbolTable
 70
     6
  0
LTYPE
  5
14
330
5
100
AcDbSymbolTableRecord
100
AcDbLinetypeTableRecord
  2
ByBlock
 70
     0
  3

 72
    65
 73
     0
 40
0.0
  0
LTYPE
  5
15
330
5
100
AcDbSymbolTableRecord
100
AcDbLinetypeTableRecord
  2
ByLayer
 70
     0
  3

 72
    65
 73
     0
 40
0.0
  0
LTYPE
  5
16
330
5
100
AcDbSymbolTableRecord
100
AcDbLinetypeTableRecord
  2
Continuous
 70
     0
  3
Solid line
 72
    65
 73
     0
 40
0.0
  0
LTYPE
  5
6E
330
5
100
AcDbSymbolTableRecord
100
AcDbLinetypeTableRecord
  2
HIDDEN
 70
     0
  3
Hidden __ __ __ __ __ __ __ __ __ __ __ __ __ __
 72
    65
 73
     2
 40
1.905
 49
1.27
 74
     0
 49
-0.635
 74
     0
  0
LTYPE
  5
6F
330
5
100
AcDbSymbolTableRecord
100
AcDbLinetypeTableRecord
  2
PHANTOM
 70
     0
  3
Phantom ______  __  __  ______  __  __  ______
 72
    65
 73
     6
 40
12.7
 49
6.35
 74
     0
 49
-1.27
 74
     0
 49
1.27
 74
     0
 49
-1.27
 74
     0
 49
1.27
 74
     0
 49
-1.27
 74
     0
  0
LTYPE
  5
70
330
5
100
AcDbSymbolTableRecord
100
AcDbLinetypeTableRecord
  2
CENTER
 70
     0
  3
Center ____ _ ____ _ ____ _ ____ _ ____ _ ____
 72
    65
 73
     4
 40
10.16
 49
6.35
 74
     0
 49
-1.27
 74
     0
 49
1.27
 74
     0
 49
-1.27
 74
     0
  0
LTYPE
  5
71
330
5
100
AcDbSymbolTableRecord
100
AcDbLinetypeTableRecord
  2
CENTERX2
 70
     0
  3
Center (2x) ________  __  ________  __  _____
 72
    65
 73
     4
 40
20.32
 49
12.7
 74
     0
 49
-2.54
 74
     0
 49
2.54
 74
     0
 49
-2.54
 74
     0
  0
LTYPE
  5
72
330
5
100
AcDbSymbolTableRecord
100
AcDbLinetypeTableRecord
  2
DOT2
 70
     0
  3
Dot (.5x) ........................................
 72
    65
 73
     2
 40
0.635
 49
0.0
 74
     0
 49
-0.635
 74
     0
  0
ENDTAB
  0
TABLE
  2
LAYER
  5
2
330
0
100
AcDbSymbolTable
 70
    17
  0
LAYER
  5
10
330
2
100
AcDbSymbolTableRecord
100
AcDbLayerTableRecord
  2
0
 70
     0
 62
     7
  6
Continuous
370
    -3
390
F
  0
LAYER
  5
73
330
2
100
AcDbSymbolTableRecord
100
AcDbLayerTableRecord
  2
FORMAT
 70
     0
 62
     7
  6
Continuous
370
    -3
390
F
  0
LAYER
  5
74
330
2
100
AcDbSymbolTableRecord
100
AcDbLayerTableRecord
  2
YARDIMCI_GEOMETRI
 70
     0
 62
    -6
  6
Continuous
290
     0
370
    -3
390
F
  0
LAYER
  5
75
330
2
100
AcDbSymbolTableRecord
100
AcDbLayerTableRecord
  2
SAYFA_CERCEVESI
 70
     0
 62
     7
  6
Continuous
370
    25
390
F
  0
LAYER
  5
76
330
2
100
AcDbSymbolTableRecord
100
AcDbLayerTableRecord
  2
ANTET
 70
     0
 62
     7
  6
Continuous
370
    -3
390
F
  0
LAYER
  5
77
330
2
100
AcDbSymbolTableRecord
100
AcDbLayerTableRecord
  2
OLCU
 70
     0
 62
   150
  6
Continuous
370
    -3
390
F
  0
LAYER
  5
78
330
2
100
AcDbSymbolTableRecord
100
AcDbLayerTableRecord
  2
METIN
 70
     0
 62
    96
  6
Continuous
370
    -3
390
F
  0
LAYER
  5
79
330
2
100
AcDbSymbolTableRecord
100
AcDbLayerTableRecord
  2
BALON
 70
     0
 62
     5
  6
Continuous
370
    -3
390
F
  0
LAYER
  5
7A
330
2
100
AcDbSymbolTableRecord
100
AcDbLayerTableRecord
  2
VURGU
 70
     0
 62
     7
  6
Continuous
370
    -3
390
F
  0
LAYER
  5
7B
330
2
100
AcDbSymbolTableRecord
100
AcDbLayerTableRecord
  2
SILIK
 70
     0
 62
     7
  6
Continuous
370
    -3
390
F
  0
LAYER
  5
7C
330
2
100
AcDbSymbolTableRecord
100
AcDbLayerTableRecord
  2
MODEL
 70
     0
 62
     7
  6
Continuous
370
    -3
390
F
  0
LAYER
  5
7D
330
2
100
AcDbSymbolTableRecord
100
AcDbLayerTableRecord
  2
DETAYLANDıRMA
 70
     0
 62
   190
  6
Continuous
370
    -3
390
F
  0
LAYER
  5
7E
330
2
100
AcDbSymbolTableRecord
100
AcDbLayerTableRecord
  2
TOLERANS
 70
     0
 62
   230
  6
Continuous
370
    -3
390
F
  0
LAYER
  5
7F
330
2
100
AcDbSymbolTableRecord
100
AcDbLayerTableRecord
  2
MERKEZ_CIZGILERI
 70
     0
 62
    30
  6
Continuous
370
    -3
390
F
  0
LAYER
  5
80
330
2
100
AcDbSymbolTableRecord
100
AcDbLayerTableRecord
  2
KESIT-DETAY_CIZGILERI
 70
     0
 62
     7
  6
Continuous
370
    -3
390
F
  0
LAYER
  5
81
330
2
100
AcDbSymbolTableRecord
100
AcDbLayerTableRecord
  2
\U+041E\U+0421\U+0415\U+0412\U+042B\U+0415
 70
     0
 62
     7
  6
Continuous
370
    -3
390
F
  0
LAYER
  5
82
330
2
100
AcDbSymbolTableRecord
100
AcDbLayerTableRecord
  2
\U+0412\U+041E\U+0414\U+042F\U+041D\U+042B\U+0415_\U+0417\U+041D\U+0410\U+041A\U+0418
 70
     0
 62
    11
  6
Continuous
370
    -3
390
F
  0
ENDTAB
  0
TABLE
  2
STYLE
  5
3
330
0
100
AcDbSymbolTable
 70
     1
  0
STYLE
  5
11
330
3
100
AcDbSymbolTableRecord
100
AcDbTextStyleTableRecord
  2
Standard
 70
     0
 40
0.0
 41
1.0
 50
0.0
 71
     0
 42
3.5
  3
txt
  4

  0
ENDTAB
  0
TABLE
  2
VIEW
  5
6
330
0
100
AcDbSymbolTable
 70
     0
  0
ENDTAB
  0
TABLE
  2
UCS
  5
7
330
0
100
AcDbSymbolTable
 70
     0
  0
ENDTAB
  0
TABLE
  2
APPID
  5
9
330
0
100
AcDbSymbolTable
 70
     1
  0
APPID
  5
12
330
9
100
AcDbSymbolTableRecord
100
AcDbRegAppTableRecord
  2
ACAD
 70
     0
  0
ENDTAB
  0
TABLE
  2
DIMSTYLE
  5
A
330
0
100
AcDbSymbolTable
 70
     1
100
AcDbDimStyleTable
  0
DIMSTYLE
105
27
330
A
100
AcDbSymbolTableRecord
100
AcDbDimStyleTableRecord
  2
ISO-25
 70
     0
 41
2.5
 42
0.625
 43
3.75
 44
1.25
 73
     0
 74
     0
 77
     1
 78
     8
140
2.5
141
2.5
143
0.0393700787
147
0.625
171
     3
172
     1
178
     0
271
     2
272
     2
274
     3
278
    44
283
     0
284
     8
340
11
  0
ENDTAB
  0
TABLE
  2
BLOCK_RECORD
  5
1
330
0
100
AcDbSymbolTable
 70
     3
  0
BLOCK_RECORD
  5
1F
330
1
100
AcDbSymbolTableRecord
100
AcDbBlockTableRecord
  2
*Model_Space
340
22
  0
BLOCK_RECORD
  5
1B
330
1
100
AcDbSymbolTableRecord
100
AcDbBlockTableRecord
  2
*Paper_Space
340
1E
  0
BLOCK_RECORD
  5
23
330
1
100
AcDbSymbolTableRecord
100
AcDbBlockTableRecord
  2
*Paper_Space0
340
26
  0
BLOCK_RECORD
  5
88
330
1
100
AcDbSymbolTableRecord
100
AcDbBlockTableRecord
  2
SW_CENTERMARKSYMBOL_0
340
0
102
{BLKREFS
331
93
102
}
  0
BLOCK_RECORD
  5
B2
330
1
100
AcDbSymbolTableRecord
100
AcDbBlockTableRecord
  2
SW_CENTERMARKSYMBOL_1
340
0
102
{BLKREFS
331
BD
102
}
  0
ENDTAB
  0
ENDSEC
  0
SECTION
  2
BLOCKS
  0
BLOCK
  5
20
330
1F
100
AcDbEntity
  8
0
100
AcDbBlockBegin
  2
*Model_Space
 70
     0
 10
0.0
 20
0.0
 30
0.0
  3
*Model_Space
  1

  0
ENDBLK
  5
21
330
1F
100
AcDbEntity
  8
0
100
AcDbBlockEnd
  0
BLOCK
  5
1C
330
1B
100
AcDbEntity
 67
     1
  8
0
100
AcDbBlockBegin
  2
*Paper_Space
 70
     0
 10
0.0
 20
0.0
 30
0.0
  3
*Paper_Space
  1

  0
ENDBLK
  5
1D
330
1B
100
AcDbEntity
 67
     1
  8
0
100
AcDbBlockEnd
  0
BLOCK
  5
24
330
23
100
AcDbEntity
  8
0
100
AcDbBlockBegin
  2
*Paper_Space0
 70
     0
 10
0.0
 20
0.0
 30
0.0
  3
*Paper_Space0
  1

  0
ENDBLK
  5
25
330
23
100
AcDbEntity
  8
0
100
AcDbBlockEnd
  0
BLOCK
  5
89
330
88
100
AcDbEntity
  8
0
100
AcDbBlockBegin
  2
SW_CENTERMARKSYMBOL_0
 70
     0
 10
0.0
 20
0.0
 30
0.0
  3
SW_CENTERMARKSYMBOL_0
  1

  0
LINE
  5
8B
330
88
100
AcDbEntity
  8
FORMAT
 62
     0
100
AcDbLine
 10
0.0
 20
0.0
 30
0.0
 11
0.0
 21
2.5
 31
0.0
  0
LINE
  5
8C
330
88
100
AcDbEntity
  8
FORMAT
 62
     0
100
AcDbLine
 10
0.0
 20
0.0
 30
0.0
 11
-2.5
 21
0.0
 31
0.0
  0
LINE
  5
8D
330
88
100
AcDbEntity
  8
FORMAT
 62
     0
100
AcDbLine
 10
0.0
 20
0.0
 30
0.0
 11
0.0
 21
-2.5
 31
0.0
  0
LINE
  5
8E
330
88
100
AcDbEntity
  8
FORMAT
 62
     0
100
AcDbLine
 10
0.0
 20
0.0
 30
0.0
 11
2.5
 21
0.0
 31
0.0
  0
LINE
  5
8F
330
88
100
AcDbEntity
  8
FORMAT
 62
     0
100
AcDbLine
 10
0.0
 20
5.0
 30
0.0
 11
0.0
 21
142.5
 31
0.0
  0
LINE
  5
90
330
88
100
AcDbEntity
  8
FORMAT
 62
     0
100
AcDbLine
 10
-5.0
 20
0.0
 30
0.0
 11
-142.5
 21
0.0
 31
0.0
  0
LINE
  5
91
330
88
100
AcDbEntity
  8
FORMAT
 62
     0
100
AcDbLine
 10
0.0
 20
-5.0
 30
0.0
 11
0.0
 21
-142.5
 31
0.0
  0
LINE
  5
92
330
88
100
AcDbEntity
  8
FORMAT
 62
     0
100
AcDbLine
 10
5.0
 20
0.0
 30
0.0
 11
142.5
 21
0.0
 31
0.0
  0
ENDBLK
  5
8A
330
88
100
AcDbEntity
  8
0
100
AcDbBlockEnd
  0
BLOCK
  5
B3
330
B2
100
AcDbEntity
  8
0
100
AcDbBlockBegin
  2
SW_CENTERMARKSYMBOL_1
 70
     0
 10
0.0
 20
0.0
 30
0.0
  3
SW_CENTERMARKSYMBOL_1
  1

  0
LINE
  5
B5
330
B2
100
AcDbEntity
  8
FORMAT
 62
     0
100
AcDbLine
 10
0.0
 20
0.0
 30
0.0
 11
0.0
 21
2.5
 31
0.0
  0
LINE
  5
B6
330
B2
100
AcDbEntity
  8
FORMAT
 62
     0
100
AcDbLine
 10
0.0
 20
0.0
 30
0.0
 11
-2.5
 21
0.0
 31
0.0
  0
LINE
  5
B7
330
B2
100
AcDbEntity
  8
FORMAT
 62
     0
100
AcDbLine
 10
0.0
 20
0.0
 30
0.0
 11
0.0
 21
-2.5
 31
0.0
  0
LINE
  5
B8
330
B2
100
AcDbEntity
  8
FORMAT
 62
     0
100
AcDbLine
 10
0.0
 20
0.0
 30
0.0
 11
2.5
 21
0.0
 31
0.0
  0
LINE
  5
B9
330
B2
100
AcDbEntity
  8
FORMAT
 62
     0
100
AcDbLine
 10
0.0
 20
5.0
 30
0.0
 11
0.0
 21
82.5
 31
0.0
  0
LINE
  5
BA
330
B2
100
AcDbEntity
  8
FORMAT
 62
     0
100
AcDbLine
 10
-5.0
 20
0.0
 30
0.0
 11
-82.5
 21
0.0
 31
0.0
  0
LINE
  5
BB
330
B2
100
AcDbEntity
  8
FORMAT
 62
     0
100
AcDbLine
 10
0.0
 20
-5.0
 30
0.0
 11
0.0
 21
-82.5
 31
0.0
  0
LINE
  5
BC
330
B2
100
AcDbEntity
  8
FORMAT
 62
     0
100
AcDbLine
 10
5.0
 20
0.0
 30
0.0
 11
82.5
 21
0.0
 31
0.0
  0
ENDBLK
  5
B4
330
B2
100
AcDbEntity
  8
0
100
AcDbBlockEnd
  0
ENDSEC
  0
SECTION
  2
ENTITIES
  0
LINE
  5
83
330
1F
100
AcDbEntity
  8
0
  6
Continuous
 62
     7
370
    25
100
AcDbLine
 10
173.7771291585
 20
25.8176642387
 30
0.0
 11
360.8720102223
 21
25.8176642387
 31
0.0
  0
LINE
  5
84
330
1F
100
AcDbEntity
  8
0
  6
Continuous
 62
     7
370
    25
100
AcDbLine
 10
360.8720102223
 20
185.8176642387
 30
0.0
 11
173.8166539935
 21
185.8176642387
 31
0.0
  0
CIRCLE
  5
85
330
1F
100
AcDbEntity
  8
0
  6
Continuous
 62
     7
370
    25
100
AcDbCircle
 10
58.8720102223
 20
105.8176642387
 30
0.0
 40
114.6
  0
CIRCLE
  5
86
330
1F
100
AcDbEntity
  8
0
  6
Continuous
 62
     7
370
    25
100
AcDbCircle
 10
58.8720102223
 20
105.8176642387
 30
0.0
 40
140.0
  0
LINE
  5
87
330
1F
100
AcDbEntity
  8
0
  6
Continuous
 62
     7
370
    25
100
AcDbLine
 10
360.8720102223
 20
185.8176642387
 30
0.0
 11
360.8720102223
 21
25.8176642387
 31
0.0
  0
INSERT
  5
93
330
1F
100
AcDbEntity
  8
FORMAT
100
AcDbBlockReference
  2
SW_CENTERMARKSYMBOL_0
 10
58.8720102223
 20
105.8176642387
 30
0.0
  0
LINE
  5
94
330
1F
100
AcDbEntity
  8
0
  6
Continuous
 62
     7
370
    25
100
AcDbLine
 10
-81.1279897777
 20
-157.09946394
 30
0.0
 11
-81.1279897777
 21
-847.09946394
 31
0.0
  0
LINE
  5
95
330
1F
100
AcDbEntity
  8
0
  6
Continuous
 62
     7
370
    25
100
AcDbLine
 10
198.8720102223
 20
-422.1007919948
 30
0.0
 11
198.8720102223
 21
-157.09946394
 31
0.0
  0
LINE
  5
96
330
1F
100
AcDbEntity
  8
0
  6
Continuous
 62
     7
370
    25
100
AcDbLine
 10
198.8720102223
 20
-847.09946394
 30
0.0
 11
198.8720102223
 21
-582.09946394
 31
0.0
  0
LINE
  5
97
330
1F
100
AcDbEntity
  8
0
  6
Continuous
 62
     7
370
    25
100
AcDbLine
 10
198.8720102223
 20
-582.09946394
 30
0.0
 11
360.8720102223
 21
-582.09946394
 31
0.0
  0
LINE
  5
98
330
1F
100
AcDbEntity
  8
0
  6
Continuous
 62
     7
370
    25
100
AcDbLine
 10
360.8720102223
 20
-422.09946394
 30
0.0
 11
198.8712520256
 21
-422.09946394
 31
0.0
  0
LWPOLYLINE
  5
99
330
1F
100
AcDbEntity
  8
0
  6
Continuous
 62
     7
370
    25
100
AcDbPolyline
 90
       43
 70
   128
 43
0.0
 10
198.8712513367
 20
-422.1007919948
 10
198.7475485768
 20
-422.3172726578
 10
198.3756280787
 20
-422.9713438118
 10
197.7416090136
 20
-424.094363291
 10
196.8694448127
 20
-425.6580356859
 10
195.8210775168
 20
-427.5671447852
 10
194.5913861776
 20
-429.8516334557
 10
193.1687842027
 20
-432.5607032559
 10
191.6089359875
 20
-435.6232165911
 10
189.8047684526
 20
-439.3029385944
 10
187.9133064907
 20
-443.3486669867
 10
185.9282343416
 20
-447.8473099358
 10
183.9382328111
 20
-452.6873193534
 10
181.8337686904
 20
-458.2864014995
 10
179.8406558663
 20
-464.2390198204
 10
177.9700918333
 20
-470.7266799587
 10
176.3616683501
 20
-477.5267195474
 10
175.3574442758
 20
-482.8960242048
 10
174.5779050216
 20
-488.3934765149
 10
174.0387899392
 20
-494.1468019595
 10
173.7831629846
 20
-499.9609997363
 10
173.8182947317
 20
-505.6366405316
 10
174.1299680744
 20
-511.2862396651
 10
174.7306734231
 20
-517.0364549849
 10
175.5914215667
 20
-522.6766596812
 10
176.6343847694
 20
-527.9436959912
 10
177.8601986285
 20
-533.0540917067
 10
179.2695417912
 20
-538.0931433416
 10
180.8032128895
 20
-542.9310471063
 10
182.6430305984
 20
-548.1349350045
 10
184.552578326
 20
-553.046546279
 10
186.5316533231
 20
-557.7501377831
 10
188.4923358695
 20
-562.1113695994
 10
190.5660433502
 20
-566.4682827512
 10
192.5118803438
 20
-570.3608357845
 10
194.3310304055
 20
-573.8573083517
 10
195.9049349798
 20
-576.7856237529
 10
196.9487499486
 20
-578.684123808
 10
197.7837513831
 20
-580.179370653
 10
198.4041696715
 20
-581.2781071257
 10
198.7696488101
 20
-581.9201960992
 10
198.8720102223
 20
-582.09946394
 10
198.8720102223
 20
-582.09946394
  0
LINE
  5
9A
330
1F
100
AcDbEntity
  8
0
  6
Continuous
 62
     7
370
    25
100
AcDbLine
 10
198.8720102223
 20
-847.09946394
 30
0.0
 11
-81.1279897777
 21
-847.09946394
 31
0.0
  0
LINE
  5
9B
330
1F
100
AcDbEntity
  8
0
  6
Continuous
 62
     7
370
    25
100
AcDbLine
 10
198.8720102223
 20
-157.09946394
 30
0.0
 11
-81.1279897777
 21
-157.09946394
 31
0.0
  0
LINE
  5
9C
330
1F
100
AcDbEntity
  8
0
  6
Continuous
 62
     7
370
    25
100
AcDbLine
 10
360.8720102223
 20
-422.09946394
 30
0.0
 11
360.8720102223
 21
-582.09946394
 31
0.0
  0
LINE
  5
9D
330
1F
100
AcDbEntity
  8
0
  6
Continuous
 62
     7
370
    25
100
AcDbLine
 10
198.8720102223
 20
750.0957266695
 30
0.0
 11
198.8720102223
 21
1015.0957266695
 31
0.0
  0
LINE
  5
9E
330
1F
100
AcDbEntity
  8
0
  6
Continuous
 62
     7
370
    25
100
AcDbLine
 10
198.8720102223
 20
325.0957266695
 30
0.0
 11
198.8720102223
 21
590.0970469389
 31
0.0
  0
LINE
  5
9F
330
1F
100
AcDbEntity
  8
0
  6
Continuous
 62
     7
370
    25
100
AcDbLine
 10
-81.1279897777
 20
1015.0957266695
 30
0.0
 11
-81.1279897777
 21
325.0957266695
 31
0.0
  0
LINE
  5
A0
330
1F
100
AcDbEntity
  8
0
  6
Continuous
 62
     7
370
    25
100
AcDbLine
 10
198.8712571409
 20
590.0957266695
 30
0.0
 11
360.8720102223
 21
590.0957266695
 31
0.0
  0
LINE
  5
A1
330
1F
100
AcDbEntity
  8
0
  6
Continuous
 62
     7
370
    25
100
AcDbLine
 10
360.8720102223
 20
750.0957266695
 30
0.0
 11
198.8720102223
 21
750.0957266695
 31
0.0
  0
SPLINE
  5
A2
330
1F
100
AcDbEntity
  8
0
  6
Continuous
 62
     7
370
    25
100
AcDbSpline
210
0.0
220
0.0
230
1.0
 70
     8
 71
     3
 72
    48
 73
    44
 74
     0
 42
0.000000001
 43
0.00000001
 40
0.0
 40
0.0
 40
0.0
 40
0.0
 40
0.0236254888202295
 40
0.0474329982471737
 40
0.0718038913373347
 40
0.0963628483718206
 40
0.1199852432894007
 40
0.1437606269007098
 40
0.1679894632274065
 40
0.192363334011399
 40
0.2177324699161821
 40
0.2432503911474242
 40
0.2692198246539913
 40
0.2953412393341966
 40
0.323325607783797
 40
0.3515123358432417
 40
0.3803857982996027
 40
0.4095261605238789
 40
0.4313440790038821
 40
0.4533018585511834
 40
0.4757244538748541
 40
0.4983180197268732
 40
0.5201392274016534
 40
0.542120309826085
 40
0.5645881473749558
 40
0.5872147315048994
 40
0.6090602630293547
 40
0.6310294776463636
 40
0.6533561860410478
 40
0.675794678662426
 40
0.7011366627376776
 40
0.7266240748188475
 40
0.752556070094293
 40
0.7786399482233257
 40
0.8067180842415193
 40
0.8350047927298522
 40
0.8639934144854168
 40
0.8932478624359235
 40
0.9192971889879953
 40
0.9455685254888534
 40
0.9725791811100046
 40
0.9998602483634185
 40
1.0
 40
1.0
 40
1.0
 40
1.0
 10
198.8720102223082
 20
750.0957266694639
 30
0.0
 10
198.8465196865025
 20
750.0511615375824
 30
0.0
 10
198.7953422251856
 20
749.9616879254804
 30
0.0
 10
198.3801800366447
 20
749.2331223596727
 30
0.0
 10
197.7158516944954
 20
748.057668355547
 30
0.0
 10
196.7980828461316
 20
746.413472236845
 30
0.0
 10
195.6673653163121
 20
744.3529728918364
 30
0.0
 10
194.3487080315923
 20
741.8984136632928
 30
0.0
 10
192.847172584414
 20
739.0280287072113
 30
0.0
 10
191.1694317131378
 20
735.713718193729
 30
0.0
 10
189.3484479949462
 20
731.9680954057309
 30
0.0
 10
187.4095104491878
 20
727.7759243605741
 30
0.0
 10
185.4128352226957
 20
723.1887741846101
 30
0.0
 10
183.3592448652793
 20
718.1069357640295
 30
0.0
 10
181.3084661042635
 20
712.5319501554218
 30
0.0
 10
179.317417692313
 20
706.416455051369
 30
0.0
 10
177.5013168641089
 20
699.8811351781429
 30
0.0
 10
176.0789480672534
 20
693.5449253768771
 30
0.0
 10
175.0430020042298
 20
687.5701593689679
 30
0.0
 10
174.3358520187059
 20
682.0260768160325
 30
0.0
 10
173.8840444882637
 20
676.3292390429905
 30
0.0
 10
173.7167965051464
 20
670.5960448230132
 30
0.0
 10
173.834979295987
 20
664.8976532473295
 30
0.0
 10
174.2284529084749
 20
659.2484257509014
 30
0.0
 10
174.8952764583249
 20
653.6105982472865
 30
0.0
 10
175.8090374305497
 20
648.1024533266335
 30
0.0
 10
176.9294733626879
 20
642.7819897775709
 30
0.0
 10
178.222958370522
 20
637.6525599473463
 30
0.0
 10
179.6762231996417
 20
632.6666834952574
 30
0.0
 10
181.3240375732154
 20
627.6468635344226
 30
0.0
 10
183.1419136928495
 20
622.6590534130573
 30
0.0
 10
185.1053189509495
 20
617.7396873552149
 30
0.0
 10
187.1013709497079
 20
613.1031011903295
 30
0.0
 10
189.1312023173099
 20
608.6771052964459
 30
0.0
 10
191.1368536906334
 20
604.5363823122932
 30
0.0
 10
193.0684568642438
 20
600.728566285536
 30
0.0
 10
194.8235877709521
 20
597.3972059741993
 30
0.0
 10
196.281647493071
 20
594.7122827428012
 30
0.0
 10
197.4148430379017
 20
592.6697313002263
 30
0.0
 10
198.2429292081
 20
591.1999165622552
 30
0.0
 10
198.7305550712474
 20
590.3430423901174
 30
0.0
 10
198.9207506059687
 20
590.0103537853545
 30
0.0
 10
198.8715074345897
 20
590.0966073430968
 30
0.0
 10
198.8712564641932
 20
590.0970469388617
 30
0.0
  0
LINE
  5
A3
330
1F
100
AcDbEntity
  8
0
  6
Continuous
 62
     7
370
    25
100
AcDbLine
 10
-81.1279897777
 20
1015.0957266695
 30
0.0
 11
198.8720102223
 21
1015.0957266695
 31
0.0
  0
LINE
  5
A4
330
1F
100
AcDbEntity
  8
0
  6
Continuous
 62
     7
370
    25
100
AcDbLine
 10
-81.1279897777
 20
325.0957266695
 30
0.0
 11
198.8720102223
 21
325.0957266695
 31
0.0
  0
LINE
  5
A5
330
1F
100
AcDbEntity
  8
0
  6
Continuous
 62
     7
370
    25
100
AcDbLine
 10
360.8720102223
 20
750.0957266695
 30
0.0
 11
360.8720102223
 21
590.0957266695
 31
0.0
  0
LINE
  5
A6
330
1F
100
AcDbEntity
  8
0
  6
Continuous
 62
     7
370
    25
100
AcDbLine
 10
473.0802451652
 20
-34.1823357613
 30
0.0
 11
1163.0802451652
 21
-34.1823357613
 31
0.0
  0
LINE
  5
A7
330
1F
100
AcDbEntity
  8
0
  6
Continuous
 62
     7
370
    25
100
AcDbLine
 10
1163.0802451652
 20
245.8176642387
 30
0.0
 11
473.0802451652
 21
245.8176642387
 31
0.0
  0
LINE
  5
A8
330
1F
100
AcDbEntity
  8
0
  6
Continuous
 62
     7
370
    25
100
AcDbLine
 10
1163.0802451652
 20
245.8176642387
 30
0.0
 11
1163.0802451652
 21
-34.1823357613
 31
0.0
  0
LINE
  5
A9
330
1F
100
AcDbEntity
  8
0
  6
Continuous
 62
     7
370
    25
100
AcDbLine
 10
473.0802451652
 20
245.8176642387
 30
0.0
 11
473.0802451652
 21
-34.1823357613
 31
0.0
  0
LINE
  5
AA
330
1F
100
AcDbEntity
  8
0
  6
Continuous
 62
     7
370
    25
100
AcDbLine
 10
-225.6906786133
 20
245.8176642387
 30
0.0
 11
-915.6906786133
 21
245.8176642387
 31
0.0
  0
LINE
  5
AB
330
1F
100
AcDbEntity
  8
0
  6
Continuous
 62
     7
370
    25
100
AcDbLine
 10
-915.6906786133
 20
-34.1823357613
 30
0.0
 11
-225.6906786133
 21
-34.1823357613
 31
0.0
  0
CIRCLE
  5
AC
330
1F
100
AcDbEntity
  8
0
  6
Continuous
 62
     7
370
    25
100
AcDbCircle
 10
-570.6906786133
 20
105.8176642387
 30
0.0
 40
65.40000000000009
  0
CIRCLE
  5
AD
330
1F
100
AcDbEntity
  8
0
  6
Continuous
 62
     7
370
    25
100
AcDbCircle
 10
-570.6906786133
 20
105.8176642387
 30
0.0
 40
80.00000000000006
  0
LINE
  5
AE
330
1F
100
AcDbEntity
  8
0
  6
Continuous
 62
     7
370
    25
100
AcDbLine
 10
-915.6906786133
 20
105.8176642387
 30
0.0
 11
-915.6906786133
 21
245.8176642387
 31
0.0
  0
LINE
  5
AF
330
1F
100
AcDbEntity
  8
0
  6
Continuous
 62
     7
370
    25
100
AcDbLine
 10
-915.6906786133
 20
-34.1823357613
 30
0.0
 11
-915.6906786133
 21
105.8176642387
 31
0.0
  0
LINE
  5
B0
330
1F
100
AcDbEntity
  8
0
  6
Continuous
 62
     7
370
    25
100
AcDbLine
 10
-225.6906786133
 20
105.8176642387
 30
0.0
 11
-225.6906786133
 21
245.8176642387
 31
0.0
  0
LINE
  5
B1
330
1F
100
AcDbEntity
  8
0
  6
Continuous
 62
     7
370
    25
100
AcDbLine
 10
-225.6906786133
 20
-34.1823357613
 30
0.0
 11
-225.6906786133
 21
105.8176642387
 31
0.0
  0
INSERT
  5
BD
330
1F
100
AcDbEntity
  8
FORMAT
100
AcDbBlockReference
  2
SW_CENTERMARKSYMBOL_1
 10
-570.6906786133
 20
105.8176642387
 30
0.0
  0
LINE
  5
BE
330
1F
100
AcDbEntity
  8
0
  6
Continuous
 62
     7
370
    25
100
AcDbLine
 10
1128.5766018425
 20
-475.5724938331
 30
0.0
 11
1034.6483313217
 21
-421.3488574441
 31
0.0
  0
LINE
  5
BF
330
1F
100
AcDbEntity
  8
0
  6
Continuous
 62
     7
370
    25
100
AcDbLine
 10
874.6353274867
 20
-328.9753165562
 30
0.0
 11
640.6729228238
 21
-193.9116952543
 31
0.0
  0
LINE
  5
C0
330
1F
100
AcDbEntity
  8
0
  6
Continuous
 62
     7
370
    25
100
AcDbLine
 10
500.6843002547
 20
-436.4053767209
 30
0.0
 11
988.5879792734
 21
-718.0661752997
 31
0.0
  0
LINE
  5
C1
330
1F
100
AcDbEntity
  8
0
  6
Continuous
 62
     7
370
    25
100
AcDbLine
 10
945.1792137019
 20
-472.9982796572
 30
0.0
 11
1068.1734482724
 21
-401.9952193822
 31
0.0
  0
LINE
  5
C2
330
1F
100
AcDbEntity
  8
0
  6
Continuous
 62
     7
370
    25
100
AcDbLine
 10
988.1799496615
 20
-263.4274014013
 30
0.0
 11
865.1837482626
 21
-334.4315971021
 31
0.0
  0
SPLINE
  5
C3
330
1F
100
AcDbEntity
  8
0
  6
Continuous
 62
     7
370
    25
100
AcDbSpline
210
0.0
220
0.0
230
1.0
 70
     8
 71
     3
 72
    38
 73
    34
 74
     0
 42
0.000000001
 43
0.00000001
 40
0.0
 40
0.0
 40
0.0
 40
0.0
 40
0.0314807876834815
 40
0.0635786316495141
 40
0.0956778374333198
 40
0.1284024645516545
 40
0.1598791296329261
 40
0.1918606208505029
 40
0.2238442403226056
 40
0.2563222413923005
 40
0.2901264258140012
 40
0.324429291554367
 40
0.3587328623144527
 40
0.3935394525948452
 40
0.4308284148813673
 40
0.4683870198390611
 40
0.5068606932598358
 40
0.5456900086311515
 40
0.57476222231489
 40
0.6043313282856765
 40
0.6338984774933379
 40
0.6640042355164756
 40
0.6930808320277279
 40
0.7226936915486365
 40
0.752308390826688
 40
0.7824581454589508
 40
0.8115671533185179
 40
0.8410780425046458
 40
0.8705910527412809
 40
0.9004901768409324
 40
0.9342581816522467
 40
0.9685160038217807
 40
1.0
 40
1.0
 40
1.0
 40
1.0
 10
857.056857919787
 20
-366.1840429765255
 30
0.0
 10
857.0703446780146
 20
-367.8678712110869
 30
0.0
 10
857.0975825490019
 20
-371.2685324703476
 30
0.0
 10
857.3202773700184
 20
-376.7300213436089
 30
0.0
 10
857.6824092296831
 20
-382.4603881490848
 30
0.0
 10
858.1941312000331
 20
-388.3342226780775
 30
0.0
 10
858.8536153678313
 20
-394.3213911625365
 30
0.0
 10
859.6576154757084
 20
-400.3392473407009
 30
0.0
 10
860.6262154204354
 20
-406.4542812473481
 30
0.0
 10
861.7799348020866
 20
-412.6793680317868
 30
0.0
 10
863.1449230268487
 20
-419.0049750686748
 30
0.0
 10
864.7391306493147
 20
-425.3554237341164
 30
0.0
 10
866.5718969058642
 20
-431.636264596028
 30
0.0
 10
868.7071695222395
 20
-437.9202467288822
 30
0.0
 10
871.1991557806658
 20
-444.1592394220146
 30
0.0
 10
874.1155882540439
 20
-450.2952171626502
 30
0.0
 10
877.4525506978462
 20
-456.1293446545432
 30
0.0
 10
880.927262127572
 20
-461.1010995616891
 30
0.0
 10
884.4304064658469
 20
-465.2478280783928
 30
0.0
 10
887.8529807506138
 20
-468.6450041944774
 30
0.0
 10
891.561995457135
 20
-471.687198018568
 30
0.0
 10
895.484296058414
 20
-474.2821116703881
 30
0.0
 10
899.6119995400505
 20
-476.4299277858623
 30
0.0
 10
903.8864961789668
 20
-478.1078898026718
 30
0.0
 10
908.3443585843363
 20
-479.3389425502881
 30
0.0
 10
912.8690532127185
 20
-480.09481201655
 30
0.0
 10
917.4355738599731
 20
-480.4008638197766
 30
0.0
 10
921.9774170343277
 20
-480.2791354877222
 30
0.0
 10
926.5300049121988
 20
-479.7443147491657
 30
0.0
 10
931.2338569002152
 20
-478.7716745077665
 30
0.0
 10
936.0562065467864
 20
-477.2978572444897
 30
0.0
 10
940.8076102239357
 20
-475.3825678535924
 30
0.0
 10
943.7575215762095
 20
-473.7593830853872
 30
0.0
 10
945.1702448636884
 20
-472.9820339897417
 30
0.0
  0
SPLINE
  5
C4
330
1F
100
AcDbEntity
  8
0
  6
Continuous
 62
     7
370
    25
100
AcDbSpline
210
0.0
220
0.0
230
1.0
 70
     8
 71
     3
 72
    17
 73
    13
 74
     0
 42
0.000000001
 43
0.00000001
 40
0.0
 40
0.0
 40
0.0
 40
0.0
 40
0.082124839214894
 40
0.1944611495608142
 40
0.3076160179585534
 40
0.4235136825383313
 40
0.5404465992570354
 40
0.6328655761015228
 40
0.7268732437126832
 40
0.8208760722156673
 40
0.9165828610840141
 40
1.0
 40
1.0
 40
1.0
 40
1.0
 10
865.2046662774372
 20
-334.4667286789742
 30
0.0
 10
864.7427472808548
 20
-334.7500216223469
 30
0.0
 10
863.6489819847747
 20
-335.4208231966014
 30
0.0
 10
862.2037175372974
 20
-337.0800092246974
 30
0.0
 10
860.809972314868
 20
-339.4280171880872
 30
0.0
 10
859.6379833720653
 20
-342.417229559405
 30
0.0
 10
858.7462297154367
 20
-345.7965288352579
 30
0.0
 10
858.0875222154148
 20
-349.4257467374072
 30
0.0
 10
857.6172255847067
 20
-353.1650242049258
 30
0.0
 10
857.2841885477857
 20
-357.328982268706
 30
0.0
 10
857.0901126903918
 20
-361.6648091859627
 30
0.0
 10
857.0674239537185
 20
-364.7481474130649
 30
0.0
 10
857.056857919787
 20
-366.1840429765255
 30
0.0
  0
LWPOLYLINE
  5
C5
330
1F
100
AcDbEntity
  8
0
  6
Continuous
 62
     7
370
    25
100
AcDbPolyline
 90
      126
 70
   128
 43
0.0
 10
669.6735609054
 20
-258.00996816
 10
669.5485259885
 20
-252.3384341908
 10
669.1737370871
 20
-246.8255892508
 10
668.5501409503
 20
-241.4853592647
 10
667.6793128361
 20
-236.3312341169
 10
666.563452532
 20
-231.3762335749
 10
665.2053787979
 20
-226.6328744001
 10
663.6085222459
 20
-222.1131387295
 10
661.7769166743
 20
-217.8284438075
 10
659.7151888777
 20
-213.7896131455
 10
657.4285469594
 20
-210.0068491802
 10
654.9227671753
 20
-206.4897075016
 10
652.2041793428
 20
-203.247072715
 10
649.2796508506
 20
-200.2871359971
 10
646.1565693114
 20
-197.6173744051
 10
642.8428239003
 20
-195.2445319884
 10
639.3467854258
 20
-193.1746027528
 10
635.6772851845
 20
-191.4128155194
 10
631.8435926525
 20
-189.9636207155
 10
627.8553920698
 20
-188.830679133
 10
623.7227579772
 20
-188.0168526807
 10
619.4561297671
 20
-187.5241971548
 10
615.0662853127
 20
-187.3539570458
 10
610.564313742
 20
-187.5065623952
 10
605.9615874259
 20
-187.9816277085
 10
601.2697332507
 20
-188.7779529296
 10
596.500603247
 20
-189.8935264718
 10
591.6662446512
 20
-191.3255302995
 10
586.7788694728
 20
-193.0703470468
 10
581.8508236454
 20
-195.1235691552
 10
576.8945558407
 20
-197.4800100073
 10
571.9225860212
 20
-200.1337170292
 10
566.9474738142
 20
-203.0779867265
 10
561.9817867849
 20
-206.3053816185
 10
557.0380686898
 20
-209.8077490256
 10
552.1288077897
 20
-213.5762416637
 10
547.2664053037
 20
-217.6013399934
 10
542.4631440827
 20
-221.872876267
 10
537.7311575811
 20
-226.3800602131
 10
533.0823992077
 20
-231.1115062939
 10
528.5286121296
 20
-236.055262466
 10
524.0812996081
 20
-241.1988403723
 10
519.7516959406
 20
-246.5292468884
 10
515.5507380818
 20
-252.033016945
 10
511.4890380157
 20
-257.6962475413
 10
507.5768559493
 20
-263.5046328652
 10
503.824074394
 20
-269.4435004313
 10
500.2401732017
 20
-275.4978481448
 10
496.8342056179
 20
-281.6523821978
 10
493.6147754122
 20
-287.8915557033
 10
490.5900151448
 20
-294.1996079673
 10
487.7675656226
 20
-300.5606043026
 10
485.154556598
 20
-306.9584762802
 10
482.7575887587
 20
-313.3770623202
 10
480.5827170535
 20
-319.8001485174
 10
478.6354353969
 20
-326.2115095985
 10
476.9206627915
 20
-332.594949909
 10
475.4427309018
 20
-338.9343443246
 10
474.2053731118
 20
-345.213678985
 10
473.2117150948
 20
-351.4170917457
 10
472.4642669172
 20
-357.5289122477
 10
471.964916698
 20
-363.5337015021
 10
471.714925839
 20
-369.41629089
 10
471.714925839
 20
-375.1618204801
 10
471.964916698
 20
-380.755776566
 10
472.4642669172
 20
-386.1840283291
 10
473.2117150948
 20
-391.4328635345
 10
474.2053731118
 20
-396.4890231688
 10
475.4427309018
 20
-401.3397349339
 10
476.9206627915
 20
-405.972745511
 10
478.6354353969
 20
-410.3763515133
 10
480.5827170535
 20
-414.5394290498
 10
482.7575887587
 20
-418.4514618253
 10
485.154556598
 20
-422.1025677056
 10
487.7675656226
 20
-425.4835236804
 10
490.5900151448
 20
-428.5857891613
 10
493.6147754122
 20
-431.4015275566
 10
496.8342056179
 20
-433.9236260667
 10
500.2401732017
 20
-436.1457136519
 10
503.824074394
 20
-438.0621771261
 10
507.5768559493
 20
-439.6681753362
 10
511.4890380157
 20
-440.9596513913
 10
515.5507380818
 20
-441.933342911
 10
519.7516959406
 20
-442.5867902658
 10
524.0812996081
 20
-442.9183427911
 10
528.5286121296
 20
-442.9271629563
 10
533.0823992077
 20
-442.6132284811
 10
537.7311575811
 20
-441.9773323911
 10
542.4631440827
 20
-441.0210810151
 10
547.2664053037
 20
-439.7468899269
 10
552.1288077897
 20
-438.1579778439
 10
557.0380686898
 20
-436.258358496
 10
561.9817867849
 20
-434.0528304863
 10
566.9474738142
 20
-431.5469651702
 10
571.9225860212
 20
-428.7470925808
 10
576.8945558407
 20
-425.6602854394
 10
581.8508236454
 20
-422.2943412886
 10
586.7788694728
 20
-418.6577627955
 10
591.6662446512
 20
-414.7597362731
 10
596.500603247
 20
-410.6101084745
 10
601.2697332507
 20
-406.2193617198
 10
605.9615874259
 20
-401.5985874163
 10
610.564313742
 20
-396.7594580409
 10
615.0662853127
 20
-391.7141976544
 10
619.4561297671
 20
-386.4755510225
 10
623.7227579772
 20
-381.0567514211
 10
627.8553920698
 20
-375.4714872084
 10
631.8435926525
 20
-369.7338672464
 10
635.6772851845
 20
-363.8583852612
 10
639.3467854258
 20
-357.8598832302
 10
642.8428239003
 20
-351.7535138901
 10
646.1565693114
 20
-345.5547024598
 10
649.2796508506
 20
-339.279107675
 10
652.2041793428
 20
-332.9425822327
 10
654.9227671753
 20
-326.5611327461
 10
657.4285469594
 20
-320.1508793105
 10
659.7151888777
 20
-313.7280147825
 10
661.7769166743
 20
-307.3087638751
 10
663.6085222459
 20
-300.9093421734
 10
665.2053787979
 20
-294.5459151719
 10
666.563452532
 20
-288.2345574395
 10
667.6793128361
 20
-281.9912120135
 10
668.5501409503
 20
-275.8316501265
 10
669.1737370871
 20
-269.7714313663
 10
669.5485259885
 20
-263.8258643714
 10
669.6735609054
 20
-258.00996816
  0
LWPOLYLINE
  5
C6
330
1F
100
AcDbEntity
  8
0
  6
Continuous
 62
     7
370
    25
100
AcDbPolyline
 90
       17
 70
   128
 43
0.0
 10
1157.5772399241
 20
-539.6707667389
 10
1157.4522050072
 20
-533.9992327696
 10
1157.0774161058
 20
-528.4863878296
 10
1156.453819969
 20
-523.1461578435
 10
1155.5829918549
 20
-517.9920326957
 10
1154.4671315508
 20
-513.0370321537
 10
1153.1090578166
 20
-508.293672979
 10
1151.5122012647
 20
-503.7739373083
 10
1149.680595693
 20
-499.4892423864
 10
1147.6188678964
 20
-495.4504117243
 10
1145.3322259781
 20
-491.667647759
 10
1142.8264461941
 20
-488.1505060804
 10
1140.1078583615
 20
-484.9078712938
 10
1137.1833298693
 20
-481.9479345759
 10
1134.0602483301
 20
-479.2781729839
 10
1130.746502919
 20
-476.9053305672
 10
1128.5766018425
 20
-475.5724938331
  0
LWPOLYLINE
  5
C7
330
1F
100
AcDbEntity
  8
0
  6
Continuous
 62
     7
370
    25
100
AcDbPolyline
 90
       48
 70
   128
 43
0.0
 10
988.5879792734
 20
-718.0661752997
 10
991.7277534127
 20
-719.7229757049
 10
995.480534968
 20
-721.328973915
 10
999.3927170344
 20
-722.6204499702
 10
1003.4544171005
 20
-723.5941414898
 10
1007.6553749593
 20
-724.2475888446
 10
1011.9849786268
 20
-724.5791413699
 10
1016.4322911483
 20
-724.5879615352
 10
1020.9860782265
 20
-724.27402706
 10
1025.6348365998
 20
-723.63813097
 10
1030.3668231014
 20
-722.6818795939
 10
1035.1700843225
 20
-721.4076885057
 10
1040.0324868084
 20
-719.8187764228
 10
1044.9417477085
 20
-717.9191570748
 10
1049.8854658037
 20
-715.7136290652
 10
1054.8511528329
 20
-713.207763749
 10
1059.8262650399
 20
-710.4078911597
 10
1064.7982348594
 20
-707.3210840182
 10
1069.7545026641
 20
-703.9551398674
 10
1074.6825484915
 20
-700.3185613744
 10
1079.5699236699
 20
-696.4205348519
 10
1084.4042822657
 20
-692.2709070533
 10
1089.1734122694
 20
-687.8801602986
 10
1093.8652664447
 20
-683.2593859951
 10
1098.4679927607
 20
-678.4202566197
 10
1102.9699643314
 20
-673.3749962333
 10
1107.3598087858
 20
-668.1363496013
 10
1111.6264369959
 20
-662.71755
 10
1115.7590710885
 20
-657.1322857872
 10
1119.7472716712
 20
-651.3946658253
 10
1123.5809642032
 20
-645.5191838401
 10
1127.2504644445
 20
-639.520681809
 10
1130.746502919
 20
-633.4143124689
 10
1134.0602483301
 20
-627.2155010386
 10
1137.1833298693
 20
-620.9399062538
 10
1140.1078583615
 20
-614.6033808115
 10
1142.8264461941
 20
-608.2219313249
 10
1145.3322259781
 20
-601.8116778894
 10
1147.6188678964
 20
-595.3888133613
 10
1149.680595693
 20
-588.9695624539
 10
1151.5122012647
 20
-582.5701407522
 10
1153.1090578166
 20
-576.2067137507
 10
1154.4671315508
 20
-569.8953560183
 10
1155.5829918549
 20
-563.6520105924
 10
1156.453819969
 20
-557.4924487054
 10
1157.0774161058
 20
-551.4322299451
 10
1157.4522050072
 20
-545.4866629502
 10
1157.5772399241
 20
-539.6707667389
  0
LWPOLYLINE
  5
C8
330
1F
100
AcDbEntity
  8
0
  6
Continuous
 62
     7
370
    25
100
AcDbPolyline
 90
      114
 70
   128
 43
0.0
 10
651.7130486632
 20
-268.3783511802
 10
651.5878122626
 20
-263.2502081591
 10
651.2124901592
 20
-258.2825108047
 10
650.5882424523
 20
-253.4906139847
 10
649.7169986556
 20
-248.8893291775
 10
648.6014517339
 20
-244.4928786908
 10
647.2450497787
 20
-240.3148517012
 10
645.6519853507
 20
-236.3681622506
 10
643.8271825209
 20
-232.6650093299
 10
641.7762816501
 20
-229.2168391726
 10
639.5056219554
 20
-226.034309875
 10
637.0222219159
 20
-223.1272584529
 10
634.3337575787
 20
-220.5046704355
 10
631.448538833
 20
-218.1746520921
 10
628.3754837246
 20
-216.1444053759
 10
625.1240908907
 20
-214.4202056632
 10
621.7044102004
 20
-213.0073823564
 10
618.1270116905
 20
-211.9103024115
 10
614.402952895
 20
-211.1323568396
 10
610.543744666
 20
-210.675950226
 10
606.5613155951
 20
-210.5424932973
 10
602.4679751424
 20
-210.7323985613
 10
598.2763755885
 20
-211.2450790316
 10
593.9994729275
 20
-212.0789500424
 10
589.6504868204
 20
-213.2314341461
 10
585.2428597341
 20
-214.6989690803
 10
580.7902153912
 20
-216.4770187787
 10
576.3063166603
 20
-218.5600873917
 10
571.8050230154
 20
-220.9417362734
 10
567.3002476972
 20
-223.6146038837
 10
562.805914708
 20
-226.5704285419
 10
558.3359157735
 20
-229.8000739635
 10
553.9040674043
 20
-233.2935574995
 10
549.5240681898
 20
-237.0400809925
 10
545.2094564564
 20
-241.0280641532
 10
540.9735684217
 20
-245.245180354
 10
536.8294969731
 20
-249.6783947305
 10
532.7900511977
 20
-254.3140044711
 10
528.8677167911
 20
-259.1376811718
 10
525.074617464
 20
-264.1345151243
 10
521.4224774692
 20
-269.2890614012
 10
517.922585362
 20
-274.5853875954
 10
514.5857591084
 20
-280.0071230661
 10
511.4223126471
 20
-285.5375095397
 10
508.4420240099
 20
-291.1594529085
 10
505.654105098
 20
-296.8555760679
 10
503.0671732092
 20
-302.6082726274
 10
500.6892244016
 20
-308.3997613317
 10
498.5276087787
 20
-314.2121410212
 10
496.5890077706
 20
-320.0274459633
 10
494.8794134818
 20
-325.8277013837
 10
493.4041101703
 20
-331.5949790252
 10
492.1676579141
 20
-337.3114525633
 10
491.1738785163
 20
-342.9594527057
 10
490.425843692
 20
-348.5215218078
 10
489.9258655741
 20
-353.9804678327
 10
489.6754895662
 20
-359.319417491
 10
489.6754895662
 20
-364.5218683954
 10
489.9258655741
 20
-369.5717400682
 10
490.425843692
 20
-374.4534236455
 10
491.1738785163
 20
-379.151830123
 10
492.1676579141
 20
-383.6524369958
 10
493.4041101703
 20
-387.9413331457
 10
494.8794134818
 20
-392.0052618406
 10
496.5890077706
 20
-395.8316617098
 10
498.5276087787
 20
-399.4087055706
 10
500.6892244016
 20
-402.7253369854
 10
503.0671732092
 20
-405.7713044365
 10
505.654105098
 20
-408.5371930132
 10
508.4420240099
 20
-411.0144535124
 10
511.4223126471
 20
-413.1954288637
 10
514.5857591084
 20
-415.0733777975
 10
517.922585362
 20
-416.642495681
 10
521.4224774692
 20
-417.897932461
 10
525.074617464
 20
-418.8358076543
 10
528.8677167911
 20
-419.4532223423
 10
532.7900511977
 20
-419.7482681317
 10
536.8294969731
 20
-419.7200330528
 10
540.9735684217
 20
-419.3686043787
 10
545.2094564564
 20
-418.6950683552
 10
549.5240681898
 20
-417.7015068436
 10
553.9040674043
 20
-416.3909908855
 10
558.3359157735
 20
-414.7675712108
 10
562.805914708
 20
-412.8362657166
 10
567.3002476972
 20
-410.6030439575
 10
571.8050230154
 20
-408.0748086939
 10
576.3063166603
 20
-405.2593745562
 10
580.7902153912
 20
-402.16544389
 10
585.2428597341
 20
-398.8025798576
 10
589.6504868204
 20
-395.181176879
 10
593.9994729275
 20
-391.3124285034
 10
598.2763755885
 20
-387.2082928102
 10
602.4679751424
 20
-382.8814554477
 10
606.5613155951
 20
-378.3452904221
 10
610.543744666
 20
-373.6138187597
 10
614.402952895
 20
-368.7016651682
 10
618.1270116905
 20
-363.6240128328
 10
621.7044102004
 20
-358.3965564859
 10
625.1240908907
 20
-353.0354538955
 10
628.3754837246
 20
-347.5572759226
 10
631.448538833
 20
-341.9789553011
 10
634.3337575787
 20
-336.3177343006
 10
637.0222219159
 20
-330.5911114307
 10
639.5056219554
 20
-324.8167873545
 10
641.7762816501
 20
-319.0126101768
 10
643.8271825209
 20
-313.1965202767
 10
645.6519853507
 20
-307.3864948547
 10
647.2450497787
 20
-301.6004923664
 10
648.6014517339
 20
-295.856397014
 10
649.7169986556
 20
-290.171963467
 10
650.5882424523
 20
-284.5647619838
 10
651.2124901592
 20
-279.0521241027
 10
651.5878122626
 20
-273.6510890716
 10
651.7130486632
 20
-268.3783511802
  0
LWPOLYLINE
  5
C9
330
1F
100
AcDbEntity
  8
0
  6
Continuous
 62
     7
370
    25
100
AcDbPolyline
 90
       86
 70
   128
 43
0.0
 10
1074.4214824565
 20
-359.4078556484
 10
1074.295195971
 20
-355.3910963926
 10
1073.9170262474
 20
-351.2504680104
 10
1073.2890387177
 20
-347.0085851782
 10
1072.4146632319
 20
-342.6886155889
 10
1071.2986753258
 20
-338.3141534186
 10
1069.9471701383
 20
-333.9090904625
 10
1068.367529122
 20
-329.497485647
 10
1066.5683797285
 20
-325.1034336278
 10
1064.5595482878
 20
-320.7509331933
 10
1062.3520063407
 20
-316.4637561915
 10
1059.9578107157
 20
-312.2653176966
 10
1057.3900376791
 20
-308.1785481237
 10
1054.6627115168
 20
-304.2257679911
 10
1051.7907279386
 20
-300.428566013
 10
1048.7897727228
 20
-296.80768119
 10
1045.6762360462
 20
-293.3828895394
 10
1042.4671229664
 20
-290.1728960855
 10
1039.1799605462
 20
-287.1952326994
 10
1035.8327021269
 20
-284.466162346
 10
1032.4436292733
 20
-282.0005902611
 10
1029.0312519259
 20
-279.8119825446
 10
1025.6142073066
 20
-277.9122926128
 10
1022.2111581282
 20
-276.3118959134
 10
1018.8406906651
 20
-275.0195332581
 10
1015.5212132419
 20
-274.0422630837
 10
1012.2708556932
 20
-273.3854229009
 10
1009.1073703448
 20
-273.052600143
 10
1006.0480350566
 20
-273.0456125726
 10
1003.1095588571
 20
-273.3644983533
 10
1000.3079906842
 20
-274.0075158416
 10
997.658631732
 20
-274.9711530989
 10
995.1759518802
 20
-276.2501470727
 10
992.8735106652
 20
-277.8375123414
 10
990.7638832227
 20
-279.7245792664
 10
988.858591606
 20
-281.9010413425
 10
987.1680418573
 20
-284.3550114886
 10
985.7014671731
 20
-287.0730869707
 10
984.4668774758
 20
-290.0404226031
 10
983.4710156661
 20
-293.2408118275
 10
982.7193207959
 20
-296.6567752279
 10
982.215898362
 20
-300.2696559966
 10
981.9634978832
 20
-304.0597218318
 10
981.9634978832
 20
-308.0062727082
 10
982.215898362
 20
-312.0877539334
 10
982.7193207959
 20
-316.2818738722
 10
983.4710156661
 20
-320.5657256961
 10
984.4668774758
 20
-324.9159124919
 10
985.7014671731
 20
-329.3086750478
 10
987.1680418573
 20
-333.720021618
 10
988.858591606
 20
-338.1258589572
 10
990.7638832227
 20
-342.5021239098
 10
992.8735106652
 20
-346.8249148342
 10
995.1759518802
 20
-351.0706221453
 10
997.658631732
 20
-355.216057262
 10
1000.3079906842
 20
-359.2385792554
 10
1003.1095588571
 20
-363.1162185051
 10
1006.0480350566
 20
-366.8277966903
 10
1009.1073703448
 20
-370.353042458
 10
1012.2708556932
 20
-373.6727021382
 10
1015.5212132419
 20
-376.7686449009
 10
1018.8406906651
 20
-379.6239617803
 10
1022.2111581282
 20
-382.2230580259
 10
1025.6142073066
 20
-384.5517382751
 10
1029.0312519259
 20
-386.597284084
 10
1032.4436292733
 20
-388.3485233908
 10
1035.8327021269
 20
-389.7958915335
 10
1039.1799605462
 20
-390.9314834894
 10
1042.4671229664
 20
-391.7490970489
 10
1045.6762360462
 20
-392.2442666903
 10
1048.7897727228
 20
-392.4142879687
 10
1051.7907279386
 20
-392.2582322869
 10
1054.6627115168
 20
-391.7769519669
 10
1057.3900376791
 20
-390.9730755949
 10
1059.9578107157
 20
-389.8509936649
 10
1062.3520063407
 20
-388.4168345993
 10
1064.5595482878
 20
-386.6784312775
 10
1066.5683797285
 20
-384.6452782558
 10
1068.367529122
 20
-382.3284799107
 10
1069.9471701383
 20
-379.7406897916
 10
1071.2986753258
 20
-376.8960415107
 10
1072.4146632319
 20
-373.8100715504
 10
1073.2890387177
 20
-370.4996344085
 10
1073.9170262474
 20
-366.9828105448
 10
1074.295195971
 20
-363.2788076316
 10
1074.4214824565
 20
-359.4078556484
  0
LWPOLYLINE
  5
CA
330
1F
100
AcDbEntity
  8
0
  6
Continuous
 62
     7
370
    25
100
AcDbPolyline
 90
       95
 70
   128
 43
0.0
 10
1084.7452414619
 20
-365.3676348647
 10
1084.6189170404
 20
-360.9315964175
 10
1084.2405079714
 20
-356.3695193224
 10
1083.6117043217
 20
-351.7017789231
 10
1082.735314481
 20
-346.9492224813
 10
1081.6152526192
 20
-342.1330760677
 10
1080.2565212043
 20
-337.2748497616
 10
1078.6651886608
 20
-332.3962415807
 10
1076.848362266
 20
-327.5190405737
 10
1074.8141564077
 20
-322.6650295041
 10
1072.5716563431
 20
-317.8558875638
 10
1070.1308776217
 20
-313.113093548
 10
1067.502721354
 20
-308.4578299261
 10
1064.6989255237
 20
-303.9108882357
 10
1061.7320125638
 20
-299.492576222
 10
1058.6152334276
 20
-295.2226271391
 10
1055.3625084075
 20
-291.120111616
 10
1051.9883649629
 20
-287.2033524832
 10
1048.5078728377
 20
-283.4898429376
 10
1044.9365767545
 20
-279.9961684143
 10
1041.2904269885
 20
-276.7379325119
 10
1037.5857081298
 20
-273.7296873029
 10
1033.8389663521
 20
-270.9848683406
 10
1030.0669355138
 20
-268.5157346528
 10
1026.2864624201
 20
-266.3333139899
 10
1022.5144315817
 20
-264.4473535725
 10
1018.767689804
 20
-262.8662765576
 10
1015.0629709453
 20
-261.5971444189
 10
1011.4168211794
 20
-260.6456254087
 10
1007.8455250962
 20
-260.0159692419
 10
1004.3650329709
 20
-259.7109881156
 10
1000.9908895264
 20
-259.7320441498
 10
997.7381645062
 20
-260.079043303
 10
994.6213853701
 20
-260.7504357927
 10
991.6544724101
 20
-261.7432230172
 10
988.8506765799
 20
-263.0529709476
 10
986.2225203121
 20
-264.6738299319
 10
983.7817415908
 20
-266.5985608202
 10
981.5392415262
 20
-268.8185672972
 10
979.5050356679
 20
-271.3239342751
 10
977.6882092731
 20
-274.1034721767
 10
976.0968767295
 20
-277.1447669111
 10
974.7381453147
 20
-280.4342353176
 10
973.6180834528
 20
-283.9571858319
 10
972.7416936122
 20
-287.6978841017
 10
972.1128899625
 20
-291.6396232604
 10
971.7344808935
 20
-295.7647985443
 10
971.608156472
 20
-300.0549859189
 10
971.7344808935
 20
-304.4910243661
 10
972.1128899625
 20
-309.0531014612
 10
972.7416936122
 20
-313.7208418605
 10
973.6180834528
 20
-318.4733983023
 10
974.7381453147
 20
-323.2895447158
 10
976.0968767295
 20
-328.147771022
 10
977.6882092731
 20
-333.0263792028
 10
979.5050356679
 20
-337.9035802099
 10
981.5392415262
 20
-342.7575912795
 10
983.7817415908
 20
-347.5667332198
 10
986.2225203121
 20
-352.3095272356
 10
988.8506765799
 20
-356.9647908575
 10
991.6544724101
 20
-361.5117325479
 10
994.6213853701
 20
-365.9300445616
 10
997.7381645062
 20
-370.1999936445
 10
1000.9908895264
 20
-374.3025091675
 10
1004.3650329709
 20
-378.2192683004
 10
1007.8455250962
 20
-381.932777846
 10
1011.4168211794
 20
-385.4264523693
 10
1015.0629709453
 20
-388.6846882717
 10
1018.767689804
 20
-391.6929334807
 10
1022.5144315817
 20
-394.437752443
 10
1026.2864624201
 20
-396.9068861308
 10
1030.0669355138
 20
-399.0893067937
 10
1033.8389663521
 20
-400.9752672111
 10
1037.5857081298
 20
-402.556344226
 10
1041.2904269885
 20
-403.8254763647
 10
1044.9365767545
 20
-404.7769953749
 10
1048.5078728377
 20
-405.4066515417
 10
1051.988364963
 20
-405.711632668
 10
1055.3625084075
 20
-405.6905766338
 10
1058.6152334276
 20
-405.3435774806
 10
1061.7320125638
 20
-404.6721849909
 10
1064.6989255237
 20
-403.6793977664
 10
1067.502721354
 20
-402.369649836
 10
1070.1308776217
 20
-400.7487908517
 10
1072.5716563431
 20
-398.8240599634
 10
1074.8141564077
 20
-396.6040534864
 10
1076.848362266
 20
-394.0986865085
 10
1078.6651886608
 20
-391.3191486069
 10
1080.2565212043
 20
-388.2778538725
 10
1081.6152526192
 20
-384.988385466
 10
1082.735314481
 20
-381.4654349517
 10
1083.6117043217
 20
-377.7247366819
 10
1084.2405079714
 20
-373.7829975231
 10
1084.6189170404
 20
-369.6578222393
 10
1084.7452414619
 20
-365.3676348647
  0
ENDSEC
  0
SECTION
  2
OBJECTS
  0
DICTIONARY
  5
C
330
0
100
AcDbDictionary
281
     1
  3
ACAD_GROUP
350
D
  3
ACAD_LAYOUT
350
1A
  3
ACAD_MLINESTYLE
350
17
  3
ACAD_PLOTSETTINGS
350
19
  3
ACAD_PLOTSTYLENAME
350
E
  3
ACAD_SCALELIST
350
47
  0
DICTIONARY
  5
D
102
{ACAD_REACTORS
330
C
102
}
330
C
100
AcDbDictionary
281
     1
  0
DICTIONARY
  5
1A
102
{ACAD_REACTORS
330
C
102
}
330
C
100
AcDbDictionary
281
     1
  3
Layout1
350
1E
  3
Layout2
350
26
  3
Model
350
22
  0
DICTIONARY
  5
17
102
{ACAD_REACTORS
330
C
102
}
330
C
100
AcDbDictionary
281
     1
  3
Standard
350
18
  0
DICTIONARY
  5
19
102
{ACAD_REACTORS
330
C
102
}
330
C
100
AcDbDictionary
281
     1
  0
ACDBDICTIONARYWDFLT
  5
E
102
{ACAD_REACTORS
330
C
102
}
330
C
100
AcDbDictionary
281
     1
  3
Normal
350
F
100
AcDbDictionaryWithDefault
340
F
  0
DICTIONARY
  5
47
102
{ACAD_REACTORS
330
C
102
}
330
C
100
AcDbDictionary
281
     1
  3
A0
350
48
  3
A1
350
49
  3
A2
350
4A
  3
A3
350
4B
  3
A4
350
4C
  3
A5
350
4D
  3
A6
350
4E
  3
A7
350
4F
  3
A8
350
50
  3
A9
350
51
  3
B0
350
52
  3
B1
350
53
  3
B2
350
54
  3
B3
350
55
  3
B4
350
56
  3
B5
350
57
  3
B6
350
58
  3
B7
350
59
  3
B8
350
5A
  3
B9
350
5B
  3
C0
350
5C
  3
C1
350
5D
  3
C2
350
5E
  3
C3
350
5F
  3
C4
350
60
  3
C5
350
61
  3
C6
350
62
  3
C7
350
63
  3
C8
350
64
  3
C9
350
65
  3
D0
350
66
  3
D1
350
67
  3
D2
350
68
  0
LAYOUT
  5
1E
102
{ACAD_REACTORS
330
1A
102
}
330
1A
100
AcDbPlotSettings
  1

  2
none_device
  4

  6

 40
0.0
 41
0.0
 42
0.0
 43
0.0
 44
0.0
 45
0.0
 46
0.0
 47
0.0
 48
0.0
 49
0.0
140
0.0
141
0.0
142
1.0
143
1.0
 70
   688
 72
     1
 73
     0
 74
     5
  7

 75
    16
147
1.0
148
0.0
149
0.0
100
AcDbLayout
  1
Layout1
 70
     1
 71
     1
 10
0.0
 20
0.0
 11
420.0
 21
297.0
 12
0.0
 22
0.0
 32
0.0
 14
1.0000000000E+20
 24
1.0000000000E+20
 34
1.0000000000E+20
 15
-1.0000000000E+20
 25
-1.0000000000E+20
 35
-1.0000000000E+20
146
0.0
 13
0.0
 23
0.0
 33
0.0
 16
1.0
 26
0.0
 36
0.0
 17
0.0
 27
1.0
 37
0.0
 76
     0
330
1B
  0
LAYOUT
  5
26
102
{ACAD_REACTORS
330
1A
102
}
330
1A
100
AcDbPlotSettings
  1

  2
none_device
  4

  6

 40
0.0
 41
0.0
 42
0.0
 43
0.0
 44
0.0
 45
0.0
 46
0.0
 47
0.0
 48
0.0
 49
0.0
140
0.0
141
0.0
142
1.0
143
1.0
 70
   688
 72
     1
 73
     0
 74
     5
  7

 75
    16
147
1.0
148
0.0
149
0.0
100
AcDbLayout
  1
Layout2
 70
     1
 71
     2
 10
0.0
 20
0.0
 11
0.0
 21
0.0
 12
0.0
 22
0.0
 32
0.0
 14
0.0
 24
0.0
 34
0.0
 15
0.0
 25
0.0
 35
0.0
146
0.0
 13
0.0
 23
0.0
 33
0.0
 16
1.0
 26
0.0
 36
0.0
 17
0.0
 27
1.0
 37
0.0
 76
     0
330
23
  0
LAYOUT
  5
22
102
{ACAD_REACTORS
330
1A
102
}
330
1A
100
AcDbPlotSettings
  1

  2
none_device
  4
Letter_(8.50_x_11.00_Inches)
  6

 40
6.35
 41
6.35
 42
6.35000508
 43
6.35000508
 44
215.9
 45
279.4
 46
0.0
 47
0.0
 48
0.0
 49
0.0
140
0.0
141
0.0
142
1.0
143
1.0
 70
  1712
 72
     1
 73
     0
 74
     0
  7

 75
     0
147
1.0
148
0.0
149
0.0
100
AcDbLayout
  1
Model
 70
     1
 71
     0
 10
0.0
 20
0.0
 11
279.4
 21
215.9
 12
0.0
 22
0.0
 32
0.0
 14
0.0
 24
0.0
 34
0.0
 15
279.4
 25
215.9
 35
0.0
146
0.0
 13
0.0
 23
0.0
 33
0.0
 16
1.0
 26
0.0
 36
0.0
 17
0.0
 27
1.0
 37
0.0
 76
     0
330
1F
331
29
  0
MLINESTYLE
  5
18
102
{ACAD_REACTORS
330
17
102
}
330
17
100
AcDbMlineStyle
  2
Standard
 70
     0
  3

 62
   256
 51
90.0
 52
90.0
 71
     2
 49
0.5
 62
   256
  6
BYLAYER
 49
-0.5
 62
   256
  6
BYLAYER
  0
ACDBPLACEHOLDER
  5
F
102
{ACAD_REACTORS
330
E
102
}
330
E
  0
SCALE
  5
48
102
{ACAD_REACTORS
330
47
102
}
330
47
100
AcDbScale
 70
     0
300
1:1
140
1.0
141
1.0
290
     1
  0
SCALE
  5
49
102
{ACAD_REACTORS
330
47
102
}
330
47
100
AcDbScale
 70
     0
300
1:2
140
1.0
141
2.0
290
     0
  0
SCALE
  5
4A
102
{ACAD_REACTORS
330
47
102
}
330
47
100
AcDbScale
 70
     0
300
1:4
140
1.0
141
4.0
290
     0
  0
SCALE
  5
4B
102
{ACAD_REACTORS
330
47
102
}
330
47
100
AcDbScale
 70
     0
300
1:5
140
1.0
141
5.0
290
     0
  0
SCALE
  5
4C
102
{ACAD_REACTORS
330
47
102
}
330
47
100
AcDbScale
 70
     0
300
1:8
140
1.0
141
8.0
290
     0
  0
SCALE
  5
4D
102
{ACAD_REACTORS
330
47
102
}
330
47
100
AcDbScale
 70
     0
300
1:10
140
1.0
141
10.0
290
     0
  0
SCALE
  5
4E
102
{ACAD_REACTORS
330
47
102
}
330
47
100
AcDbScale
 70
     0
300
1:16
140
1.0
141
16.0
290
     0
  0
SCALE
  5
4F
102
{ACAD_REACTORS
330
47
102
}
330
47
100
AcDbScale
 70
     0
300
1:20
140
1.0
141
20.0
290
     0
  0
SCALE
  5
50
102
{ACAD_REACTORS
330
47
102
}
330
47
100
AcDbScale
 70
     0
300
1:30
140
1.0
141
30.0
290
     0
  0
SCALE
  5
51
102
{ACAD_REACTORS
330
47
102
}
330
47
100
AcDbScale
 70
     0
300
1:40
140
1.0
141
40.0
290
     0
  0
SCALE
  5
52
102
{ACAD_REACTORS
330
47
102
}
330
47
100
AcDbScale
 70
     0
300
1:50
140
1.0
141
50.0
290
     0
  0
SCALE
  5
53
102
{ACAD_REACTORS
330
47
102
}
330
47
100
AcDbScale
 70
     0
300
1:100
140
1.0
141
100.0
290
     0
  0
SCALE
  5
54
102
{ACAD_REACTORS
330
47
102
}
330
47
100
AcDbScale
 70
     0
300
2:1
140
2.0
141
1.0
290
     0
  0
SCALE
  5
55
102
{ACAD_REACTORS
330
47
102
}
330
47
100
AcDbScale
 70
     0
300
4:1
140
4.0
141
1.0
290
     0
  0
SCALE
  5
56
102
{ACAD_REACTORS
330
47
102
}
330
47
100
AcDbScale
 70
     0
300
8:1
140
8.0
141
1.0
290
     0
  0
SCALE
  5
57
102
{ACAD_REACTORS
330
47
102
}
330
47
100
AcDbScale
 70
     0
300
10:1
140
10.0
141
1.0
290
     0
  0
SCALE
  5
58
102
{ACAD_REACTORS
330
47
102
}
330
47
100
AcDbScale
 70
     0
300
100:1
140
100.0
141
1.0
290
     0
  0
SCALE
  5
59
102
{ACAD_REACTORS
330
47
102
}
330
47
100
AcDbScale
 70
     0
300
1/128" = 1'-0"
140
0.0078125
141
12.0
290
     0
  0
SCALE
  5
5A
102
{ACAD_REACTORS
330
47
102
}
330
47
100
AcDbScale
 70
     0
300
1/64" = 1'-0"
140
0.015625
141
12.0
290
     0
  0
SCALE
  5
5B
102
{ACAD_REACTORS
330
47
102
}
330
47
100
AcDbScale
 70
     0
300
1/32" = 1'-0"
140
0.03125
141
12.0
290
     0
  0
SCALE
  5
5C
102
{ACAD_REACTORS
330
47
102
}
330
47
100
AcDbScale
 70
     0
300
1/16" = 1'-0"
140
0.0625
141
12.0
290
     0
  0
SCALE
  5
5D
102
{ACAD_REACTORS
330
47
102
}
330
47
100
AcDbScale
 70
     0
300
3/32" = 1'-0"
140
0.09375
141
12.0
290
     0
  0
SCALE
  5
5E
102
{ACAD_REACTORS
330
47
102
}
330
47
100
AcDbScale
 70
     0
300
1/8" = 1'-0"
140
0.125
141
12.0
290
     0
  0
SCALE
  5
5F
102
{ACAD_REACTORS
330
47
102
}
330
47
100
AcDbScale
 70
     0
300
3/16" = 1'-0"
140
0.1875
141
12.0
290
     0
  0
SCALE
  5
60
102
{ACAD_REACTORS
330
47
102
}
330
47
100
AcDbScale
 70
     0
300
1/4" = 1'-0"
140
0.25
141
12.0
290
     0
  0
SCALE
  5
61
102
{ACAD_REACTORS
330
47
102
}
330
47
100
AcDbScale
 70
     0
300
3/8" = 1'-0"
140
0.375
141
12.0
290
     0
  0
SCALE
  5
62
102
{ACAD_REACTORS
330
47
102
}
330
47
100
AcDbScale
 70
     0
300
1/2" = 1'-0"
140
0.5
141
12.0
290
     0
  0
SCALE
  5
63
102
{ACAD_REACTORS
330
47
102
}
330
47
100
AcDbScale
 70
     0
300
3/4" = 1'-0"
140
0.75
141
12.0
290
     0
  0
SCALE
  5
64
102
{ACAD_REACTORS
330
47
102
}
330
47
100
AcDbScale
 70
     0
300
1" = 1'-0"
140
1.0
141
12.0
290
     0
  0
SCALE
  5
65
102
{ACAD_REACTORS
330
47
102
}
330
47
100
AcDbScale
 70
     0
300
1-1/2" = 1'-0"
140
1.5
141
12.0
290
     0
  0
SCALE
  5
66
102
{ACAD_REACTORS
330
47
102
}
330
47
100
AcDbScale
 70
     0
300
3" = 1'-0"
140
3.0
141
12.0
290
     0
  0
SCALE
  5
67
102
{ACAD_REACTORS
330
47
102
}
330
47
100
AcDbScale
 70
     0
300
6" = 1'-0"
140
6.0
141
12.0
290
     0
  0
SCALE
  5
68
102
{ACAD_REACTORS
330
47
102
}
330
47
100
AcDbScale
 70
     0
300
1'-0" = 1'-0"
140
12.0
141
12.0
290
     0
  0
ENDSEC
  0
EOF
